ISO-10303-21;
HEADER;
FILE_DESCRIPTION (( 'STEP AP203' ),
    '1' );
FILE_NAME ('N-SF1-BPBSC-10-420-680.STEP',
    '2021-01-05T02:13:25',
    ( '' ),
    ( '' ),
    'SwSTEP 2.0',
    'SolidWorks 2020',
    '' );
FILE_SCHEMA (( 'CONFIG_CONTROL_DESIGN' ));
ENDSEC;

DATA;
#1 = APPLICATION_PROTOCOL_DEFINITION ( 'international standard', 'config_control_design', 1994, #95 ) ;
#2 = UNCERTAINTY_MEASURE_WITH_UNIT (LENGTH_MEASURE( 1.000000000000000082E-05 ), #26, 'distance_accuracy_value', 'NONE');
#3 = FACE_OUTER_BOUND ( 'NONE', #143, .T. ) ;
#4 = EDGE_LOOP ( 'NONE', ( #195, #155, #134, #184 ) ) ;
#5 = CALENDAR_DATE ( 2021, 5, 1 ) ;
#6 = ORIENTED_EDGE ( 'NONE', *, *, #42, .F. ) ;
#7 = CARTESIAN_POINT ( 'NONE',  ( 5.000000000000000888, -5.000000000000000000, -5.000000000000000000 ) ) ;
#8 = EDGE_CURVE ( 'NONE', #83, #31, #267, .T. ) ;
#9 = APPROVAL_STATUS ( 'not_yet_approved' ) ;
#10 = APPROVAL_PERSON_ORGANIZATION ( #303, #169, #273 ) ;
#11 = CARTESIAN_POINT ( 'NONE',  ( -4.999999999999999112, 5.000000000000001776, -5.000000000000000000 ) ) ;
#12 = EDGE_CURVE ( 'NONE', #237, #209, #62, .T. ) ;
#13 = PLANE ( 'NONE',  #88 ) ;
#14 = APPROVAL_DATE_TIME ( #133, #292 ) ;
#15 = ORIENTED_EDGE ( 'NONE', *, *, #42, .T. ) ;
#16 = DIRECTION ( 'NONE',  ( -0.000000000000000000, 0.000000000000000000, -1.000000000000000000 ) ) ;
#17 = VECTOR ( 'NONE', #112, 1000.000000000000000 ) ;
#18 = ORIENTED_EDGE ( 'NONE', *, *, #8, .T. ) ;
#19 = CARTESIAN_POINT ( 'NONE',  ( -4.999999999999999112, -5.000000000000000000, -5.000000000000000000 ) ) ;
#20 = CARTESIAN_POINT ( 'NONE',  ( 5.000000000000000888, -5.000000000000000000, 5.000000000000000000 ) ) ;
#21 = EDGE_CURVE ( 'NONE', #177, #237, #285, .T. ) ;
#22 = DIRECTION ( 'NONE',  ( 1.734723475976807094E-16, 1.000000000000000000, -0.000000000000000000 ) ) ;
#23 = DIRECTION ( 'NONE',  ( 2.220446049250313081E-16, 1.000000000000000000, 0.000000000000000000 ) ) ;
#24 = DIRECTION ( 'NONE',  ( 0.7071067811865475727, 0.7071067811865474617, 0.000000000000000000 ) ) ;
#25 = VECTOR ( 'NONE', #201, 1000.000000000000000 ) ;
#26 =( LENGTH_UNIT ( ) NAMED_UNIT ( * ) SI_UNIT ( .MILLI., .METRE. ) );
#27 = CARTESIAN_POINT ( 'NONE',  ( 5.000000000000000888, 5.000000000000001776, 5.000000000000000000 ) ) ;
#28 = ORIENTED_EDGE ( 'NONE', *, *, #63, .T. ) ;
#29 = ADVANCED_BREP_SHAPE_REPRESENTATION ( 'N-SF1-BPBSC-10-420-680', ( #149, #150, #202 ), #92 ) ;
#30 = COORDINATED_UNIVERSAL_TIME_OFFSET ( 8, 0, .AHEAD. ) ;
#31 = VERTEX_POINT ( 'NONE', #11 ) ;
#32 = SECURITY_CLASSIFICATION ( '', '', #186 ) ;
#33 = ORIENTED_EDGE ( 'NONE', *, *, #187, .F. ) ;
#34 = EDGE_CURVE ( 'NONE', #211, #288, #66, .T. ) ;
#35 = FACE_OUTER_BOUND ( 'NONE', #231, .T. ) ;
#36 = FACE_OUTER_BOUND ( 'NONE', #206, .T. ) ;
#37 = EDGE_LOOP ( 'NONE', ( #191, #166, #298 ) ) ;
#38 = DIRECTION ( 'NONE',  ( 1.000000000000000000, 0.000000000000000000, 0.000000000000000000 ) ) ;
#39 = AXIS2_PLACEMENT_3D ( 'NONE', #194, #287, #307 ) ;
#40 = CARTESIAN_POINT ( 'NONE',  ( -5.000000000000000888, -4.999999999999998224, 5.000000000000000000 ) ) ;
#41 = LINE ( 'NONE', #223, #141 ) ;
#42 = EDGE_CURVE ( 'NONE', #288, #31, #218, .T. ) ;
#43 = CARTESIAN_POINT ( 'NONE',  ( 5.000000000000002665, 5.000000000000000000, 5.000000000000000000 ) ) ;
#44 = CARTESIAN_POINT ( 'NONE',  ( 0.000000000000000000, 0.000000000000000000, -5.000000000000000000 ) ) ;
#45 = LINE ( 'NONE', #290, #111 ) ;
#46 = COORDINATED_UNIVERSAL_TIME_OFFSET ( 8, 0, .AHEAD. ) ;
#47 = CARTESIAN_POINT ( 'NONE',  ( 5.000000000000000888, 5.000000000000001776, -5.000000000000000000 ) ) ;
#48 = VECTOR ( 'NONE', #156, 1000.000000000000000 ) ;
#49 = PERSON_AND_ORGANIZATION ( #294, #270 ) ;
#50 = ORIENTED_EDGE ( 'NONE', *, *, #259, .T. ) ;
#51 = PERSON_AND_ORGANIZATION ( #294, #270 ) ;
#52 = PLANE ( 'NONE',  #213 ) ;
#53 = ORIENTED_EDGE ( 'NONE', *, *, #21, .F. ) ;
#54 =( NAMED_UNIT ( * ) SI_UNIT ( $, .STERADIAN. ) SOLID_ANGLE_UNIT ( ) );
#55 = VECTOR ( 'NONE', #317, 1000.000000000000000 ) ;
#56 = ORIENTED_EDGE ( 'NONE', *, *, #198, .F. ) ;
#57 = ADVANCED_FACE ( 'NONE', ( #36 ), #94, .F. ) ;
#58 = EDGE_LOOP ( 'NONE', ( #50, #117, #56, #96 ) ) ;
#59 = SHAPE_DEFINITION_REPRESENTATION ( #225, #29 ) ;
#60 = VECTOR ( 'NONE', #249, 1000.000000000000000 ) ;
#61 = ORIENTED_EDGE ( 'NONE', *, *, #173, .F. ) ;
#62 = LINE ( 'NONE', #189, #207 ) ;
#63 = EDGE_CURVE ( 'NONE', #211, #83, #261, .T. ) ;
#64 = CALENDAR_DATE ( 2021, 5, 1 ) ;
#65 = DIRECTION ( 'NONE',  ( 2.220446049250313081E-16, 1.000000000000000000, 0.000000000000000000 ) ) ;
#66 = LINE ( 'NONE', #40, #299 ) ;
#67 = VECTOR ( 'NONE', #109, 1000.000000000000000 ) ;
#68 = ADVANCED_FACE ( 'NONE', ( #35 ), #136, .F. ) ;
#69 = LINE ( 'NONE', #318, #266 ) ;
#70 = PLANE ( 'NONE',  #196 ) ;
#71 = CARTESIAN_POINT ( 'NONE',  ( 5.000000000000002665, 5.000000000000000000, -5.000000000000000000 ) ) ;
#72 = LOCAL_TIME ( 10, 13, 25.00000000000000000, #114 ) ;
#73 = FACE_OUTER_BOUND ( 'NONE', #181, .T. ) ;
#74 = DESIGN_CONTEXT ( 'detailed design', #222, 'design' ) ;
#75 = APPROVAL_STATUS ( 'not_yet_approved' ) ;
#76 = DIRECTION ( 'NONE',  ( 1.000000000000000000, 0.000000000000000000, 0.000000000000000000 ) ) ;
#77 = EDGE_LOOP ( 'NONE', ( #216, #235, #153 ) ) ;
#78 = PERSON_AND_ORGANIZATION ( #294, #270 ) ;
#79 = CC_DESIGN_PERSON_AND_ORGANIZATION_ASSIGNMENT ( #305, #260, ( #32 ) ) ;
#80 = ORIENTED_EDGE ( 'NONE', *, *, #212, .T. ) ;
#81 = PRODUCT ( 'N-SF1-BPBSC-10-420-680', 'N-SF1-BPBSC-10-420-680', '', ( #234 ) ) ;
#82 = PERSON_AND_ORGANIZATION_ROLE ( 'design_owner' ) ;
#83 = VERTEX_POINT ( 'NONE', #162 ) ;
#84 = DIRECTION ( 'NONE',  ( 0.000000000000000000, 0.000000000000000000, 1.000000000000000000 ) ) ;
#85 = ORIENTED_EDGE ( 'NONE', *, *, #182, .F. ) ;
#86 = ADVANCED_FACE ( 'NONE', ( #188 ), #13, .F. ) ;
#87 = CALENDAR_DATE ( 2021, 5, 1 ) ;
#88 = AXIS2_PLACEMENT_3D ( 'NONE', #93, #241, #310 ) ;
#89 = ORIENTED_EDGE ( 'NONE', *, *, #313, .T. ) ;
#90 = PLANE ( 'NONE',  #190 ) ;
#91 = PERSON_AND_ORGANIZATION ( #294, #270 ) ;
#92 =( GEOMETRIC_REPRESENTATION_CONTEXT ( 3 ) GLOBAL_UNCERTAINTY_ASSIGNED_CONTEXT ( ( #2 ) ) GLOBAL_UNIT_ASSIGNED_CONTEXT ( ( #26, #129, #54 ) ) REPRESENTATION_CONTEXT ( 'NONE', 'WORKASPACE' ) );
#93 = CARTESIAN_POINT ( 'NONE',  ( 5.000000000000002665, 5.000000000000000000, 5.000000000000000000 ) ) ;
#94 = PLANE ( 'NONE',  #39 ) ;
#95 = APPLICATION_CONTEXT ( 'configuration controlled 3d designs of mechanical parts and assemblies' ) ;
#96 = ORIENTED_EDGE ( 'NONE', *, *, #309, .T. ) ;
#97 = ADVANCED_FACE ( 'NONE', ( #262 ), #90, .T. ) ;
#98 = DIRECTION ( 'NONE',  ( 0.000000000000000000, -0.000000000000000000, 1.000000000000000000 ) ) ;
#99 = CC_DESIGN_APPROVAL ( #292, ( #32 ) ) ;
#100 = CARTESIAN_POINT ( 'NONE',  ( 5.000000000000002665, 5.000000000000000000, -5.000000000000000000 ) ) ;
#101 = PLANE ( 'NONE',  #316 ) ;
#102 = VECTOR ( 'NONE', #65, 1000.000000000000000 ) ;
#103 = DIRECTION ( 'NONE',  ( 2.220446049250313081E-16, 1.000000000000000000, 0.000000000000000000 ) ) ;
#104 = APPROVAL_DATE_TIME ( #229, #169 ) ;
#105 = ORIENTED_EDGE ( 'NONE', *, *, #151, .F. ) ;
#106 = CC_DESIGN_PERSON_AND_ORGANIZATION_ASSIGNMENT ( #51, #154, ( #221 ) ) ;
#107 = LINE ( 'NONE', #27, #67 ) ;
#108 = CARTESIAN_POINT ( 'NONE',  ( -5.000000000000000888, -4.999999999999998224, -5.000000000000000000 ) ) ;
#109 = DIRECTION ( 'NONE',  ( 1.000000000000000000, -4.857225732735059864E-17, 0.000000000000000000 ) ) ;
#110 = COORDINATED_UNIVERSAL_TIME_OFFSET ( 8, 0, .AHEAD. ) ;
#111 = VECTOR ( 'NONE', #199, 1000.000000000000000 ) ;
#112 = DIRECTION ( 'NONE',  ( 2.220446049250313081E-16, 1.000000000000000000, 0.000000000000000000 ) ) ;
#113 = DIRECTION ( 'NONE',  ( -0.000000000000000000, 0.000000000000000000, -1.000000000000000000 ) ) ;
#114 = COORDINATED_UNIVERSAL_TIME_OFFSET ( 8, 0, .AHEAD. ) ;
#115 = EDGE_CURVE ( 'NONE', #177, #215, #272, .T. ) ;
#116 = CARTESIAN_POINT ( 'NONE',  ( -5.000000000000000888, -4.999999999999998224, -5.000000000000000000 ) ) ;
#117 = ORIENTED_EDGE ( 'NONE', *, *, #115, .F. ) ;
#118 = ORIENTED_EDGE ( 'NONE', *, *, #259, .F. ) ;
#119 = CARTESIAN_POINT ( 'NONE',  ( 5.000000000000000888, 5.000000000000001776, 5.000000000000000000 ) ) ;
#120 = PLANE ( 'NONE',  #257 ) ;
#121 = PRODUCT_DEFINITION_FORMATION_WITH_SPECIFIED_SOURCE ( 'ANY', '', #81, .NOT_KNOWN. ) ;
#122 = CARTESIAN_POINT ( 'NONE',  ( 5.000000000000000888, 5.000000000000001776, 5.000000000000000000 ) ) ;
#123 = DIRECTION ( 'NONE',  ( -0.000000000000000000, 0.000000000000000000, -1.000000000000000000 ) ) ;
#124 = CARTESIAN_POINT ( 'NONE',  ( -5.000000000000000888, -4.999999999999998224, 5.000000000000000000 ) ) ;
#125 = LOCAL_TIME ( 10, 13, 25.00000000000000000, #180 ) ;
#126 = EDGE_CURVE ( 'NONE', #237, #232, #45, .T. ) ;
#127 = CARTESIAN_POINT ( 'NONE',  ( 0.000000000000000000, 0.000000000000000000, -5.000000000000000000 ) ) ;
#128 = ORIENTED_EDGE ( 'NONE', *, *, #8, .F. ) ;
#129 =( NAMED_UNIT ( * ) PLANE_ANGLE_UNIT ( ) SI_UNIT ( $, .RADIAN. ) );
#130 = ORIENTED_EDGE ( 'NONE', *, *, #250, .T. ) ;
#131 = CLOSED_SHELL ( 'NONE', ( #247, #57, #68, #146, #208 ) ) ;
#132 = ORIENTED_EDGE ( 'NONE', *, *, #115, .T. ) ;
#133 = DATE_AND_TIME ( #64, #185 ) ;
#134 = ORIENTED_EDGE ( 'NONE', *, *, #126, .F. ) ;
#135 = VECTOR ( 'NONE', #245, 1000.000000000000000 ) ;
#136 = PLANE ( 'NONE',  #254 ) ;
#137 = CC_DESIGN_PERSON_AND_ORGANIZATION_ASSIGNMENT ( #193, #214, ( #121 ) ) ;
#138 = DIRECTION ( 'NONE',  ( -0.000000000000000000, -0.000000000000000000, -1.000000000000000000 ) ) ;
#139 = DATE_TIME_ROLE ( 'classification_date' ) ;
#140 = CARTESIAN_POINT ( 'NONE',  ( 0.000000000000000000, 0.000000000000000000, 5.000000000000000000 ) ) ;
#141 = VECTOR ( 'NONE', #258, 1000.000000000000000 ) ;
#142 = AXIS2_PLACEMENT_3D ( 'NONE', #204, #175, #228 ) ;
#143 = EDGE_LOOP ( 'NONE', ( #105, #118, #33 ) ) ;
#144 = ORIENTED_EDGE ( 'NONE', *, *, #12, .F. ) ;
#145 = CARTESIAN_POINT ( 'NONE',  ( 0.000000000000000000, 0.000000000000000000, 5.000000000000000000 ) ) ;
#146 = ADVANCED_FACE ( 'NONE', ( #321 ), #70, .T. ) ;
#147 = DIRECTION ( 'NONE',  ( -0.7071067811865474617, 0.7071067811865475727, 0.000000000000000000 ) ) ;
#148 = FACE_OUTER_BOUND ( 'NONE', #277, .T. ) ;
#149 = MANIFOLD_SOLID_BREP ( 'Í¹Ì¨-À', #282 ) ;
#150 = MANIFOLD_SOLID_BREP ( '¾µÏ', #131 ) ;
#151 = EDGE_CURVE ( 'NONE', #215, #209, #200, .T. ) ;
#152 = VECTOR ( 'NONE', #123, 1000.000000000000000 ) ;
#153 = ORIENTED_EDGE ( 'NONE', *, *, #63, .F. ) ;
#154 = PERSON_AND_ORGANIZATION_ROLE ( 'creator' ) ;
#155 = ORIENTED_EDGE ( 'NONE', *, *, #309, .F. ) ;
#156 = DIRECTION ( 'NONE',  ( -0.000000000000000000, -0.000000000000000000, -1.000000000000000000 ) ) ;
#157 = CC_DESIGN_APPROVAL ( #169, ( #121 ) ) ;
#158 = DATE_TIME_ROLE ( 'creation_date' ) ;
#159 = ORIENTED_EDGE ( 'NONE', *, *, #250, .F. ) ;
#160 = APPROVAL ( #174, 'UNSPECIFIED' ) ;
#161 = CARTESIAN_POINT ( 'NONE',  ( 5.000000000000002665, 5.000000000000000000, 5.000000000000000000 ) ) ;
#162 = CARTESIAN_POINT ( 'NONE',  ( -4.999999999999999112, 5.000000000000001776, 5.000000000000000000 ) ) ;
#163 = CARTESIAN_POINT ( 'NONE',  ( -5.000000000000000888, -4.999999999999998224, 5.000000000000000000 ) ) ;
#164 = DIRECTION ( 'NONE',  ( -4.857225732735059864E-17, -1.000000000000000000, 0.000000000000000000 ) ) ;
#165 = VECTOR ( 'NONE', #113, 1000.000000000000000 ) ;
#166 = ORIENTED_EDGE ( 'NONE', *, *, #126, .T. ) ;
#167 = CARTESIAN_POINT ( 'NONE',  ( 5.000000000000002665, 5.000000000000000000, 5.000000000000000000 ) ) ;
#168 = DIRECTION ( 'NONE',  ( 1.000000000000000000, -4.857225732735059864E-17, 0.000000000000000000 ) ) ;
#169 = APPROVAL ( #75, 'UNSPECIFIED' ) ;
#170 = CARTESIAN_POINT ( 'NONE',  ( -4.999999999999999112, -5.000000000000000000, 5.000000000000000000 ) ) ;
#171 = LOCAL_TIME ( 10, 13, 25.00000000000000000, #30 ) ;
#172 = DIRECTION ( 'NONE',  ( 0.000000000000000000, -0.000000000000000000, 1.000000000000000000 ) ) ;
#173 = EDGE_CURVE ( 'NONE', #31, #219, #274, .T. ) ;
#174 = APPROVAL_STATUS ( 'not_yet_approved' ) ;
#175 = DIRECTION ( 'NONE',  ( 0.000000000000000000, 1.000000000000000000, 0.000000000000000000 ) ) ;
#176 = DIRECTION ( 'NONE',  ( -0.000000000000000000, 0.000000000000000000, 1.000000000000000000 ) ) ;
#177 = VERTEX_POINT ( 'NONE', #220 ) ;
#178 = CC_DESIGN_SECURITY_CLASSIFICATION ( #32, ( #121 ) ) ;
#179 = APPROVAL_ROLE ( '' ) ;
#180 = COORDINATED_UNIVERSAL_TIME_OFFSET ( 8, 0, .AHEAD. ) ;
#181 = EDGE_LOOP ( 'NONE', ( #300, #144, #53, #132 ) ) ;
#182 = EDGE_CURVE ( 'NONE', #302, #219, #248, .T. ) ;
#183 = CARTESIAN_POINT ( 'NONE',  ( 5.000000000000000888, 5.000000000000001776, 5.000000000000000000 ) ) ;
#184 = ORIENTED_EDGE ( 'NONE', *, *, #12, .T. ) ;
#185 = LOCAL_TIME ( 10, 13, 25.00000000000000000, #110 ) ;
#186 = SECURITY_CLASSIFICATION_LEVEL ( 'unclassified' ) ;
#187 = EDGE_CURVE ( 'NONE', #209, #286, #224, .T. ) ;
#188 = FACE_OUTER_BOUND ( 'NONE', #58, .T. ) ;
#189 = CARTESIAN_POINT ( 'NONE',  ( -4.999999999999999112, -5.000000000000000000, 5.000000000000000000 ) ) ;
#190 = AXIS2_PLACEMENT_3D ( 'NONE', #140, #265, #38 ) ;
#191 = ORIENTED_EDGE ( 'NONE', *, *, #21, .T. ) ;
#192 = CC_DESIGN_DATE_AND_TIME_ASSIGNMENT ( #203, #158, ( #221 ) ) ;
#193 = PERSON_AND_ORGANIZATION ( #294, #270 ) ;
#194 = CARTESIAN_POINT ( 'NONE',  ( -5.000000000000000888, -4.999999999999998224, 5.000000000000000000 ) ) ;
#195 = ORIENTED_EDGE ( 'NONE', *, *, #187, .T. ) ;
#196 = AXIS2_PLACEMENT_3D ( 'NONE', #145, #98, #23 ) ;
#197 = CARTESIAN_POINT ( 'NONE',  ( 5.000000000000000888, 5.000000000000001776, -5.000000000000000000 ) ) ;
#198 = EDGE_CURVE ( 'NONE', #232, #177, #69, .T. ) ;
#199 = DIRECTION ( 'NONE',  ( 1.000000000000000000, 0.000000000000000000, 0.000000000000000000 ) ) ;
#200 = LINE ( 'NONE', #100, #60 ) ;
#201 = DIRECTION ( 'NONE',  ( -0.7071067811865475727, -0.7071067811865474617, 0.000000000000000000 ) ) ;
#202 = AXIS2_PLACEMENT_3D ( 'NONE', #295, #84, #320 ) ;
#203 = DATE_AND_TIME ( #210, #171 ) ;
#204 = CARTESIAN_POINT ( 'NONE',  ( -4.999999999999999112, -5.000000000000000000, 5.000000000000000000 ) ) ;
#205 = PERSON_AND_ORGANIZATION ( #294, #270 ) ;
#206 = EDGE_LOOP ( 'NONE', ( #6, #279, #28, #18 ) ) ;
#207 = VECTOR ( 'NONE', #138, 1000.000000000000000 ) ;
#208 = ADVANCED_FACE ( 'NONE', ( #226 ), #101, .F. ) ;
#209 = VERTEX_POINT ( 'NONE', #19 ) ;
#210 = CALENDAR_DATE ( 2021, 5, 1 ) ;
#211 = VERTEX_POINT ( 'NONE', #124 ) ;
#212 = EDGE_CURVE ( 'NONE', #302, #211, #293, .T. ) ;
#213 = AXIS2_PLACEMENT_3D ( 'NONE', #127, #176, #301 ) ;
#214 = PERSON_AND_ORGANIZATION_ROLE ( 'design_supplier' ) ;
#215 = VERTEX_POINT ( 'NONE', #71 ) ;
#216 = ORIENTED_EDGE ( 'NONE', *, *, #212, .F. ) ;
#217 = APPROVAL_PERSON_ORGANIZATION ( #78, #160, #179 ) ;
#218 = LINE ( 'NONE', #116, #17 ) ;
#219 = VERTEX_POINT ( 'NONE', #269 ) ;
#220 = CARTESIAN_POINT ( 'NONE',  ( 5.000000000000002665, 5.000000000000000000, 5.000000000000000000 ) ) ;
#221 = PRODUCT_DEFINITION ( 'UNKNOWN', '', #121, #74 ) ;
#222 = APPLICATION_CONTEXT ( 'configuration controlled 3d designs of mechanical parts and assemblies' ) ;
#223 = CARTESIAN_POINT ( 'NONE',  ( 5.000000000000002665, 5.000000000000000000, -5.000000000000000000 ) ) ;
#224 = LINE ( 'NONE', #246, #312 ) ;
#225 = PRODUCT_DEFINITION_SHAPE ( 'NONE', 'NONE',  #221 ) ;
#226 = FACE_OUTER_BOUND ( 'NONE', #243, .T. ) ;
#227 = CARTESIAN_POINT ( 'NONE',  ( 5.000000000000000888, -5.000000000000000000, 5.000000000000000000 ) ) ;
#228 = DIRECTION ( 'NONE',  ( 0.000000000000000000, -0.000000000000000000, 1.000000000000000000 ) ) ;
#229 = DATE_AND_TIME ( #253, #238 ) ;
#230 = LINE ( 'NONE', #227, #48 ) ;
#231 = EDGE_LOOP ( 'NONE', ( #61, #128, #89, #311 ) ) ;
#232 = VERTEX_POINT ( 'NONE', #20 ) ;
#233 = VECTOR ( 'NONE', #251, 1000.000000000000000 ) ;
#234 = MECHANICAL_CONTEXT ( 'NONE', #95, 'mechanical' ) ;
#235 = ORIENTED_EDGE ( 'NONE', *, *, #313, .F. ) ;
#236 = CC_DESIGN_PERSON_AND_ORGANIZATION_ASSIGNMENT ( #49, #82, ( #81 ) ) ;
#237 = VERTEX_POINT ( 'NONE', #170 ) ;
#238 = LOCAL_TIME ( 10, 13, 25.00000000000000000, #46 ) ;
#239 = DIRECTION ( 'NONE',  ( -1.000000000000000000, 4.857225732735059864E-17, 0.000000000000000000 ) ) ;
#240 = DATE_AND_TIME ( #87, #72 ) ;
#241 = DIRECTION ( 'NONE',  ( -1.000000000000000000, 1.734723475976807094E-16, 0.000000000000000000 ) ) ;
#242 = ADVANCED_FACE ( 'NONE', ( #291 ), #289, .F. ) ;
#243 = EDGE_LOOP ( 'NONE', ( #130, #15, #304 ) ) ;
#244 = APPROVAL_PERSON_ORGANIZATION ( #91, #292, #308 ) ;
#245 = DIRECTION ( 'NONE',  ( -0.7071067811865475727, -0.7071067811865474617, 0.000000000000000000 ) ) ;
#246 = CARTESIAN_POINT ( 'NONE',  ( -4.999999999999999112, -5.000000000000000000, -5.000000000000000000 ) ) ;
#247 = ADVANCED_FACE ( 'NONE', ( #148 ), #271, .F. ) ;
#248 = LINE ( 'NONE', #319, #152 ) ;
#249 = DIRECTION ( 'NONE',  ( -0.7071067811865475727, -0.7071067811865474617, 0.000000000000000000 ) ) ;
#250 = EDGE_CURVE ( 'NONE', #219, #288, #315, .T. ) ;
#251 = DIRECTION ( 'NONE',  ( -0.000000000000000000, -0.000000000000000000, -1.000000000000000000 ) ) ;
#252 = DIRECTION ( 'NONE',  ( 0.7071067811865474617, -0.7071067811865475727, 0.000000000000000000 ) ) ;
#253 = CALENDAR_DATE ( 2021, 5, 1 ) ;
#254 = AXIS2_PLACEMENT_3D ( 'NONE', #314, #164, #239 ) ;
#255 = APPLICATION_PROTOCOL_DEFINITION ( 'international standard', 'config_control_design', 1994, #222 ) ;
#256 = ADVANCED_FACE ( 'NONE', ( #73 ), #120, .F. ) ;
#257 = AXIS2_PLACEMENT_3D ( 'NONE', #167, #252, #268 ) ;
#258 = DIRECTION ( 'NONE',  ( 1.734723475976807094E-16, 1.000000000000000000, -0.000000000000000000 ) ) ;
#259 = EDGE_CURVE ( 'NONE', #286, #215, #41, .T. ) ;
#260 = PERSON_AND_ORGANIZATION_ROLE ( 'classification_officer' ) ;
#261 = LINE ( 'NONE', #163, #102 ) ;
#262 = FACE_OUTER_BOUND ( 'NONE', #37, .T. ) ;
#263 = PRODUCT_RELATED_PRODUCT_CATEGORY ( 'detail', '', ( #81 ) ) ;
#264 = CARTESIAN_POINT ( 'NONE',  ( -4.999999999999999112, 5.000000000000001776, 5.000000000000000000 ) ) ;
#265 = DIRECTION ( 'NONE',  ( -0.000000000000000000, 0.000000000000000000, 1.000000000000000000 ) ) ;
#266 = VECTOR ( 'NONE', #22, 1000.000000000000000 ) ;
#267 = LINE ( 'NONE', #264, #165 ) ;
#268 = DIRECTION ( 'NONE',  ( 0.7071067811865475727, 0.7071067811865474617, 0.000000000000000000 ) ) ;
#269 = CARTESIAN_POINT ( 'NONE',  ( 5.000000000000000888, 5.000000000000001776, -5.000000000000000000 ) ) ;
#270 = ORGANIZATION ( 'UNSPECIFIED', 'UNSPECIFIED', '' ) ;
#271 = PLANE ( 'NONE',  #281 ) ;
#272 = LINE ( 'NONE', #43, #233 ) ;
#273 = APPROVAL_ROLE ( '' ) ;
#274 = LINE ( 'NONE', #47, #306 ) ;
#275 = ADVANCED_FACE ( 'NONE', ( #3 ), #52, .F. ) ;
#276 = CC_DESIGN_APPROVAL ( #160, ( #221 ) ) ;
#277 = EDGE_LOOP ( 'NONE', ( #159, #85, #80, #283 ) ) ;
#278 = APPROVAL_DATE_TIME ( #280, #160 ) ;
#279 = ORIENTED_EDGE ( 'NONE', *, *, #34, .F. ) ;
#280 = DATE_AND_TIME ( #5, #125 ) ;
#281 = AXIS2_PLACEMENT_3D ( 'NONE', #119, #147, #24 ) ;
#282 = CLOSED_SHELL ( 'NONE', ( #256, #242, #86, #97, #275 ) ) ;
#283 = ORIENTED_EDGE ( 'NONE', *, *, #34, .T. ) ;
#284 = CC_DESIGN_DATE_AND_TIME_ASSIGNMENT ( #240, #139, ( #32 ) ) ;
#285 = LINE ( 'NONE', #161, #135 ) ;
#286 = VERTEX_POINT ( 'NONE', #7 ) ;
#287 = DIRECTION ( 'NONE',  ( 1.000000000000000000, -2.220446049250313081E-16, 0.000000000000000000 ) ) ;
#288 = VERTEX_POINT ( 'NONE', #108 ) ;
#289 = PLANE ( 'NONE',  #142 ) ;
#290 = CARTESIAN_POINT ( 'NONE',  ( -4.999999999999999112, -5.000000000000000000, 5.000000000000000000 ) ) ;
#291 = FACE_OUTER_BOUND ( 'NONE', #4, .T. ) ;
#292 = APPROVAL ( #9, 'UNSPECIFIED' ) ;
#293 = LINE ( 'NONE', #122, #25 ) ;
#294 = PERSON ( 'UNSPECIFIED', 'UNSPECIFIED', 'UNSPECIFIED', ('UNSPECIFIED'), ('UNSPECIFIED'), ('UNSPECIFIED') ) ;
#295 = CARTESIAN_POINT ( 'NONE',  ( 0.000000000000000000, 0.000000000000000000, 0.000000000000000000 ) ) ;
#296 = CC_DESIGN_PERSON_AND_ORGANIZATION_ASSIGNMENT ( #205, #297, ( #121 ) ) ;
#297 = PERSON_AND_ORGANIZATION_ROLE ( 'creator' ) ;
#298 = ORIENTED_EDGE ( 'NONE', *, *, #198, .T. ) ;
#299 = VECTOR ( 'NONE', #16, 1000.000000000000000 ) ;
#300 = ORIENTED_EDGE ( 'NONE', *, *, #151, .T. ) ;
#301 = DIRECTION ( 'NONE',  ( 1.000000000000000000, 0.000000000000000000, 0.000000000000000000 ) ) ;
#302 = VERTEX_POINT ( 'NONE', #183 ) ;
#303 = PERSON_AND_ORGANIZATION ( #294, #270 ) ;
#304 = ORIENTED_EDGE ( 'NONE', *, *, #173, .T. ) ;
#305 = PERSON_AND_ORGANIZATION ( #294, #270 ) ;
#306 = VECTOR ( 'NONE', #168, 1000.000000000000000 ) ;
#307 = DIRECTION ( 'NONE',  ( 0.000000000000000000, 0.000000000000000000, 1.000000000000000000 ) ) ;
#308 = APPROVAL_ROLE ( '' ) ;
#309 = EDGE_CURVE ( 'NONE', #232, #286, #230, .T. ) ;
#310 = DIRECTION ( 'NONE',  ( -1.734723475976807094E-16, -1.000000000000000000, 0.000000000000000000 ) ) ;
#311 = ORIENTED_EDGE ( 'NONE', *, *, #182, .T. ) ;
#312 = VECTOR ( 'NONE', #76, 1000.000000000000000 ) ;
#313 = EDGE_CURVE ( 'NONE', #83, #302, #107, .T. ) ;
#314 = CARTESIAN_POINT ( 'NONE',  ( 5.000000000000000888, 5.000000000000001776, 5.000000000000000000 ) ) ;
#315 = LINE ( 'NONE', #197, #55 ) ;
#316 = AXIS2_PLACEMENT_3D ( 'NONE', #44, #172, #103 ) ;
#317 = DIRECTION ( 'NONE',  ( -0.7071067811865475727, -0.7071067811865474617, 0.000000000000000000 ) ) ;
#318 = CARTESIAN_POINT ( 'NONE',  ( 5.000000000000002665, 5.000000000000000000, 5.000000000000000000 ) ) ;
#319 = CARTESIAN_POINT ( 'NONE',  ( 5.000000000000000888, 5.000000000000001776, 5.000000000000000000 ) ) ;
#320 = DIRECTION ( 'NONE',  ( 1.000000000000000000, 0.000000000000000000, 0.000000000000000000 ) ) ;
#321 = FACE_OUTER_BOUND ( 'NONE', #77, .T. ) ;
ENDSEC;
END-ISO-10303-21;
